Саян (father_gorry) wrote in bugotak,
Саян
father_gorry
bugotak

Мы Сибиряки

Табы для 6-стр гитары норм. строя

Рифф 1

1-----------------------------------
2-------------0-------5-------3-2---
3-----4---------6-------7--------4--
4----4--4----4---4---4---4---2------
5--2-----2-0-------5-------0--------
6-----------------------------------

Аккорды риффа 2

1-----------------------
2-----------------------
3--4---4---7---4--------
4--4---4---5---2--------
5--2---0---5---0--------
6----------5------------

3 часть:
Bm F#m Bm Bm6 F#m
О_О, мен сыбырагчы!! О_о
  • Post a new comment

    Error

    default userpic

    Your IP address will be recorded 

  • 1 comment